Black Sabbath - Paranoid (var.4) Bass tab download free or play online

Bass tab for Paranoid (var.4) by Black Sabbath free download and read or play online: file .txt, 5.22 kb has 1022 views and 0 downloads.

Download bass tab "Paranoid (var.4)" (Black Sabbath)

Black Sabbath Band name
Paranoid Song name
Bass tabs Tab type
5.22 kb File size
.TXT File type
1022 views
0 downloads
 
Are you robot?

Paranoid (var.4) bass tab read and play online

                    After Guitar Comes Does it Twice(come in with drums)

|-------------------------------
|------------------------------- x2
|-5h7-5h7-5h7----5-7---5-7------
|-------------5-7---5-7---------

|-----------------------------------
|------------------------------5----  x2
|-777777777777----5-7-55555555--5--7
|--------------5-7------------------

|-----------------------------------
|-----------------------------------  x2
|-77777777-3333-5555-77777777777777-
|-----------------------------------

|-----------------------------------
|------------------------------5----  x2
|-777777777777----5-7-55555555--5--7
|--------------5-7------------------

|-----------------------------------------------------------
|-----------------------------------------------------------
|-777777777777--55555555555555-77777777777777-55555555555555
|-----------------------------------------------------------

|-----------------------------------
|------------------------------5----  x4
|-777777777777----5-7-55555555--5--7
|--------------5-7------------------

During Guitar Solo
|-----------------------------------
|------------------------------5----  x4
|-777777777777----5-7-55555555--5--7
|--------------5-7------------------

|-----------------------------------
|------------------------------5----  x4
|-777777777777----5-7-55555555--5--7
|--------------5-7------------------

|-----------------------------------
|-----------------------------------  x2
|-77777777-3333-5555-77777777777777-
|-----------------------------------

|-----------------------------------
|------------------------------5----  x3
|-777777777777----5-7-55555555--5--7
|--------------5-7------------------

|||After Guitar Comes Does it Twice(come in with drums)

|-------------------------------
|------------------------------- x2
|-5h7-5h7-5h7----5-7---5-7------
|-------------5-7---5-7---------

|-----------------------------------
|------------------------------5----  x2
|-777777777777----5-7-55555555--5--7
|--------------5-7------------------

|-----------------------------------
|-----------------------------------  x2
|-77777777-3333-5555-77777777777777-
|-----------------------------------

|-----------------------------------
|------------------------------5----  x2
|-777777777777----5-7-55555555--5--7
|--------------5-7------------------

|-----------------------------------------------------------
|-----------------------------------------------------------
|-777777777777--55555555555555-77777777777777-55555555555555
|-----------------------------------------------------------

|-----------------------------------
|------------------------------5----  x4
|-777777777777----5-7-55555555--5--7
|--------------5-7------------------

During Guitar Solo
|-----------------------------------
|------------------------------5----  x4
|-777777777777----5-7-55555555--5--7
|--------------5-7------------------

|-----------------------------------
|------------------------------5----  x4
|-777777777777----5-7-55555555--5--7
|--------------5-7------------------

|-----------------------------------
|-----------------------------------  x2
|-77777777-3333-5555-77777777777777-
|-----------------------------------

|-----------------------------------
|------------------------------5----  x4
|-777777777777----5-7-55555555--5--7
|--------------5-7------------------
After Guitar Comes Does it Twice(come in with drums)

|-------------------------------
|------------------------------- x2
|-5h7-5h7-5h7----5-7---5-7------
|-------------5-7---5-7---------

|-----------------------------------
|------------------------------5----  x2
|-777777777777----5-7-55555555--5--7
|--------------5-7------------------

|-----------------------------------
|-----------------------------------  x2
|-77777777-3333-5555-77777777777777-
|-----------------------------------

|-----------------------------------
|------------------------------5----  x2
|-777777777777----5-7-55555555--5--7
|--------------5-7------------------

|-----------------------------------------------------------
|-----------------------------------------------------------
|-777777777777--55555555555555-77777777777777-55555555555555
|-----------------------------------------------------------

|-----------------------------------
|------------------------------5----  x4
|-777777777777----5-7-55555555--5--7
|--------------5-7------------------

During Guitar Solo
|-----------------------------------
|------------------------------5----  x4
|-777777777777----5-7-55555555--5--7
|--------------5-7------------------

|-----------------------------------
|------------------------------5----  x4
|-777777777777----5-7-55555555--5--7
|--------------5-7------------------

|-----------------------------------
|-----------------------------------  x2
|-77777777-3333-5555-77777777777777-
|-----------------------------------

|-----------------------------------
|------------------------------5----  x3
|-777777777777----5-7-55555555--5--7
|--------------5-7------------------

|-----------------------------------
|-----------------------------------  x1
|-777777777777----5-7-55555555--5---
|--------------5-7-------------3---0                    

Comments for bass tab — Paranoid (var.4) (Black Sabbath)

Other Paranoid (var.4) by Black Sabbath tabs:

Last viewed Black Sabbath tabs: