Black Sabbath - Paranoid (var.16) Guitar tab download free or play online

Guitar tab for Paranoid (var.16) by Black Sabbath free download and read or play online: file .txt, 5.32 kb has 1037 views and 0 downloads.

Download guitar tab "Paranoid (var.16)" (Black Sabbath)

Black Sabbath Band name
Paranoid Song name
Guitar tabs Tab type
5.32 kb File size
.TXT File type
1037 views
0 downloads
 
Are you robot?

Paranoid (var.16) guitar tab read and play online

                    Band: BLACK SABBATH
Song: PARANOID

Chord Shapes Used In The Song

E     D     G     C     
 ------------------------
 ------------12----------
 ------------12----10----
 14----12----12----10----
 14----12----------8-----
 12----10----------------
 
 
 RHYTHM FIGURE 1A
 
 E-E-E-E-E-E-E-E-|E-E-E-E-E-E-E-E-|D-D-D-D-D-D-D-D-|G-D-----E---G2--|
 
 RHYTHM FIGURE 1B
 
 E-E-E-E-E-E-E-E-|E-E-E-E-E-E-E-E-|D-D-D-D-D-D-D-D-|G-D-----E-------|
 
 RHYTHM FIGURE 2
 
 E---------------|C-------D-------|E-E-E-E-E-E-E-E-|E-E-E-E-E-E-E-E-|
 
 RHYTHM FIGURE 3
 
 E---------------|----------------|D---------------|----------------|
 
 INTRO
 --------------------------------|--------------------------------|
 --------------------------------|--------------------------------|
 --------------------------------|--------------------------------|
 --------------------------------|--------12-h14----------12------|
 (12)h14-----(12)h14-----(12)h14-|12-h14----------12-h14------14--|
 12----------12----------12------|--------------------------------|
 
 KEY:
 h = hammer on
 (12) = this note hardly takes time to sound
 
 Finally, song flow and lyrics (Figure 1 = Figure 1A + Figure 1B)
 
 [INTRO] X4
 w/Figure 1
 Finished with my woman cause she couldn't help me with my mind
 People think I'm insane because I am frowning all the time
 [Figure 2] X2
 w/Figure 1
 All day long I think of things but nothing seems to satisfy
 Think I'll lose my mind if I don't find something to pacify
 w/Figure 3
 Can you help me? Are you for my brain? Oh yeah!
 [Figure 1A] X2
 w/Figure 1
 I need someone to show me the things in life that I can't find
 I can't see the things that make true happiness I must be blind
 [Solo over Figure 1A]
 [Figure 1A] X2
 w/Figure 1
 Make a joke and I will sigh and you will laugh and I will cry
 Happiness I cannot feel and love to me is so unreal
 [Figure 2] X2
 w/Figure 1A
 And so as you hear these words telling you now of my state
 I tell you to enjoy life I wish i could but im too late
 [Figure 1]

And Now For The Solo

1  + 2  + 3 + 4 +   1 + 2 +  3 +  4 +   1  +  2  +  3  + 4 +
e|-------------------|-------------------|----------------------|
B|-------------------|-------------------|----------------------|
G|-12p9----9---------|-----9----9--------|----------------------|
D|------12-----------|-------12---12-9---|----------------------|
A|-------------------|-------------------|-10h12-10h12-10\7-7---|
E|-------------------|-------------------|----------------------|

1  + 2 + 3 + 4 +   1 +  2 + 3 + 4 +   1 + 2 +    3  +   4   +
e|------------------|------------------|---------------------------|
B|------------------|------------------|-----8-10-10b12r10p8-10b12=|
G|------------------|----------7h9-9---|-7-9-----------------------|
D|------------------|------7h9---------|---------------------------|
A|-10-7---7---------|-7h10-------------|---------------------------|
E|------------------|------------------|---------------------------|

1   + 2 + 3 + 4 +   1 + 2 + 3 +  4  +    1 + 2 + 3 + 4  +   
e|-------------------|--------------------|-------------------|
B|=r10p8-10--8-------|--------------17-15-|-17----17----17-15-|
G|-------------9-9-9-|-7-9-9-9-9/16-------|-------------------|
D|-------------------|--------------------|-------------------|
A|-------------------|--------------------|-------------------|
E|-------------------|--------------------|-------------------|

1  +  2  +  3   +     4     +    1     +  2     +  3  +  4     +
e|-17b19-17b19-17b19r17p15-17p15----|-15p12----------------------------|
B|-------------------------------17-|-------15-15p12-------------------|
G|----------------------------------|----------------14-12-14-14p12----|
D|----------------------------------|-------------------------------14-|
A|----------------------------------|----------------------------------|
E|----------------------------------|----------------------------------|

1  +  2  +    3   +  4 +     1  + 2     +     3  +  4     +
e|--------------------------|-----------------------------------|
B|--------------------------|-----------------------------------|
G|-12----12-14b16r14-12-----|-14b16--12h14p12----12-------------|
D|----14--------------------|-----------------14----14----------|
A|--------------------------|--------------------------12h13h14-|
E|--------------------------|-----------------------------------|

1 + 2  +  3     +  4     +    1 + 2  +  3  +  4 +   1  + 2 + 3 
e|-----------------------------|---------------------|-------------|
B|-----------------------------|---------------------|-------------|
G|-----------------------------|-----------12--------|-------------|
D|-12--------------------------|-12--12-14----14-12--|-14-12----14-|
A|-----14-12-14p12----12h13h14-|---------------------|-------------|
E|-----------------15----------|---------------------|-------------|

Tablature Legend:

b--> bend (to the equivalent of the next number)
r--> release bend
h--> hammer-on
p--> pull-off
=--> hold bend
/--> slide up
\--> slide down                    

Comments for guitar tab — Paranoid (var.16) (Black Sabbath)

Other Paranoid (var.16) by Black Sabbath tabs:

Last viewed Black Sabbath tabs: