Black Sabbath - Paranoid (var.7) Bass tab download free or play online

Bass tab for Paranoid (var.7) by Black Sabbath free download and read or play online: file .txt, 4.17 kb has 1025 views and 0 downloads.

Download bass tab "Paranoid (var.7)" (Black Sabbath)

Black Sabbath Band name
Paranoid Song name
Bass tabs Tab type
4.17 kb File size
.TXT File type
1025 views
0 downloads
 
Are you robot?

Paranoid (var.7) bass tab read and play online

                    Artist:	Black Sabbath
Title:	Paranoid (corrected)









Paranoid                           KEY: h= hammer on
Original Bassist: Geezer Butler         /= slide
Tuning: Standard (E A D G)

I made a tab for this a few months ago when I first started playing bass and I thought it 
was right but then I developed an ear for bass and noticed all my mistakes. This tab is 
just to fix the mistakes I made but if theres any other mistakes you people see please 
tell me.

INTRO (come in after the guitar plays the intro twice)
G|--------------7h9-----7h9------------7h9-----7h9-|
D|----------7h9-----7h9------------7h9-----7h9-----|
A|-2/7--7-7-----------------7--7-7-----------------|
E|-------------------------------------------------|

VERSE 1
G|---------------------------------------|
D|--------------------------------5----5-|
A|-77777777777777777-55555555555---5-7---| x2 
E|---------------------------------------|

PRE-VERSE 2
G|-------------5--7------------------|
D|------------5--7-------------------|
A|-77777777-3--5----7777777777777777-|
E|-----------------------------------|

VERSE 2
G|---------------------------------------|
D|--------------------------------5----5-|
A|-77777777777777777-55555555555---5-7---| 
E|---------------------------------------|

G|-----------------------7h9---------------------|
D|-------------------7h9------------------5----5-|
A|-77777777777777777---------55555555555---5-7---|
E|-----------------------------------------------|

CHORUS
G|---------------------------------|
D|---------------------------------|
A|-77777777777777777-55555555555---| x2
E|---------------------------------|

PRE-VERSE 3
G|---------------------------------------|
D|--------------------------------5----5-|
A|-77777777777777777-55555555555---5-7---| x2
E|---------------------------------------|

VERSE 3
G|-----------------------7h9---------------------|
D|-------------------7h9------------------5----5-|
A|-77777777777777777---------55555555555---5-7---| x2
E|-----------------------------------------------|

SOLO
G|---------------------------------------|
D|--------------------------------5----5-|
A|-77777777777777777-55555555555---5-7---| x4
E|---------------------------------------|

PRE-VERSE 4
G|-----------------------7h9---------------------|
D|-------------------7h9------------------5----5-|
A|-77777777777777777---------55555555555---5-7---| x2
E|-----------------------------------------------|

VERSE 4
G|---------------------------------------|
D|--------------------------------5----5-|
A|-77777777777777777-55555555555---5-7---| x2
E|---------------------------------------|

PRE-VERSE 5
G|-------------5--7------------------|
D|------------5--7-------------------|
A|-77777777-3--5----7777777777777777-| x2
E|-----------------------------------|

VERSE 5
G|-----------------------7h9---------------------|
D|-------------------7h9------------------5----5-|
A|-77777777777777777---------55555555555---5-7---| x2
E|-----------------------------------------------|

OUTRO
G|---------------------------------------|
D|--------------------------------5----5-|
A|-77777777777777777-55555555555---5-7---| 
E|---------------------------------------|

G|-----------------------7h9---------------------|
D|-------------------7h9------------------5----5-|
A|-77777777777777777---------55555555555---5-7---|
E|-----------------------------------------------|

G|-------------------------------------|
D|--------------------------------5----|
A|-77777777777777777-55555555555---5-7-| 
E|-------------------------------------|

Thats all of it. Any questions or comments reach me through my profile or my e-mail sandman12_23_91@yahoo.com 
METAL UP YOUR ASS!!!!!                    

Comments for bass tab — Paranoid (var.7) (Black Sabbath)

Other Paranoid (var.7) by Black Sabbath tabs:

Last viewed Black Sabbath tabs: