Black Sabbath - Paranoid (var.10) Bass tab download free or play online

Bass tab for Paranoid (var.10) by Black Sabbath free download and read or play online: file .txt, 1.62 kb has 977 views and 0 downloads.

Download bass tab "Paranoid (var.10)" (Black Sabbath)

Black Sabbath Band name
Paranoid Song name
Bass tabs Tab type
1.62 kb File size
.TXT File type
977 views
0 downloads
 
Are you robot?

Paranoid (var.10) bass tab read and play online

                    --------------------------------------------------------------------------------
			     Paranoid - BLACK SABBATH 
--------------------------------------------------------------------------------

Tabbed By :HENRY   A.K.A  |GEL-HEAD|
e-mail: Fender GelHead4@aol.com

Tuning:Normal or Whatever Sounds Best

LEGEND:
-Means how many times you hit a certain note(for those of you who are lazy
and dont like to count)


Main Riff #1
G|----------------------------------------------------------------------|
D|-------------------------------------------------------5--------------|
A|---7-7-7-7-7-7-7-7-7-7-7-7--5-7--5-5-5-5-5-5-5----5-7----------|
E|----------------------------------------------------------------------|

The Hook
G|----------------------------------------------------------------------|
D|----------------------------------------------------5-----------------|
A|--7-7-7-7-7-7-7-7-7-7----5-7--5-5-5-5-5-5-5----5-7-------------|
E|---------------------------7------------------------------------------|

Riff #2
G|------------------------5---------------------------------------------|
D|----------------------5-----------------------------------------------|
A|--7-7-7-7-7-7-7--3------7-7-7-7-7-7-7-7-7-7-7-7----------------|
E|----------------------------------------------------------------------|

Riff #3
G|----7--7--7---9--9--9------7--7--7---9--9--9--------------------------|
D|----------------------------------------------------------------------|
A|--5--5--5---7--7--7------5--5--5---7--7--7----------------------------|
E|----------------------------------------------------------------------|                    

Comments for bass tab — Paranoid (var.10) (Black Sabbath)

Other Paranoid (var.10) by Black Sabbath tabs:

Last viewed Black Sabbath tabs: