Black Sabbath - Paranoid (var.21) Guitar tab download free or play online

Guitar tab for Paranoid (var.21) by Black Sabbath free download and read or play online: file .txt, 5.11 kb has 992 views and 0 downloads.

Download guitar tab "Paranoid (var.21)" (Black Sabbath)

Black Sabbath Band name
Paranoid Song name
Guitar tabs Tab type
5.11 kb File size
.TXT File type
992 views
0 downloads
 
Are you robot?

Paranoid (var.21) guitar tab read and play online

                    -------------------------------------------------------------------------------
			     Paranoid - Black Sabbath
-------------------------------------------------------------------------------
Tabbed by: Tarin
Email: tarin_rules@hotmail.com

Since many tabs have small mistakes, or a bad solo, here's mine.
This song can be played with two guitars, both follows the same pattern,
but one is palm muted.



Tuning: Standard (EADGBe)


Intro:

e|---------------------------------------------------------|
B|---------------------------------------------------------|
G|---------------------------------------------------------|
D|------------------------12h14----------------12----------|
A|--12h14--12h14--12h14---------12h14---12h14------14------|
E|--12-----12-----12---------------------------------------|







Main riff (verse) :

As this song is very easy, i'll only put out the chords, 
you will have to listen to the song for the strumming.

    E5     D5      End with this part
e|---------------|--------------|
B|---------------|--------------|
G|---------------|--------------|
D|---------------|--------------|
A|--14-----12----|-14---12---14-|
E|--12-----10----|-12---10---12-|


fill:

                             
 				 x2
    E5    C5   D5   E5
e|-------------------------|
B|-------------------------|
G|-------------------------|
D|-------------------------|
A|--14----10---12---14-----|
E|--12----8----10---12-----|



Bridge:


e|-------------------------------------------------------------------------|
B|-------------------------------------------------------------------------|
G|------------------------------------------------------------------------|
D|-------------------------------------------------------------------------|
A|--14------------------12----------------------14-------------------------|
E|--12------------------10----------------------12-------------------------|
    Can you help me?         Occupy my brain?       Oh, yeah.....




Solo (Gtr 2 or disorted bass follows main riff):

e|-------------------------------------------------------------------------|
B|-------------------------------------------------------------------------|
G|---9b11r9p7--9~-----9-7--9p7---------------------------------------------|
D|------------------------------9/7--5h7-5h7---------5---------------------|
A|---------------------------------------------5h7-7-----7-7---------------|
E|-------------------------------------------------------------------------|

e|-------------------------------------------------------------------------|
B|-------------------------------------------------------------------------|
G|-----------7h9-9-7-------12---14b16r14p12-14---14b16r14p12-14------------|
D|--5h7-7/9-----------9/12-------------------------------------------------|
A|-------------------------------------------------------------------------|
E|-------------------------------------------------------------------------|

e|-------------------------------------12----------------------------------|
B|----------------------------------12---------15b17--15b17---15-12--------|
G|--12--------------------------/14----------------------------------------|
D|-----14-14-14--12h14-14-14-----------------------------------------------|
A|-------------------------------------------------------------------------|
E|-------------------------------------------------------------------------|

e|--15b17r15-15b17-15b17--12----15p12-----15p12------------------------12--|
B|------------------------------------15--------15-----15p12--------12-----|
G|------------------------------------------------------------14b16--------|
D|-------------------------------------------------------------------------|
A|-------------------------------------------------------------------------|
E|-------------------------------------------------------------------------|

e|-------------------------------------------------------------------------|
B|--15p12------------------------------------------------------------------|
G|--------14--14p12-------14b16r14p12~----14b16---12h14p12-12------12------|
D|------------------12-----------------------------------------14----------|
A|-------------------------------------------------------------------------|
E|-------------------------------------------------------------------------|

e|-------------------------------------------------------------------------|
B|-------------------------------------------------------------------------|
G|-----------------------------------------------------------12------------|
D|--14--14p12------12------------------------------12-12h14------14--12-14~|
A|-------------14--------14/12-10-12p10-------12/14------------------------|
E|--------------------------------------12---------------------------------|



Pattern of this song:

Intro x 4
Main riff x2
Fill x2
Main riff x2
Bridge
Main riff x3
Solo
Main riff x4
Fill x2
Main riff x3


_ _ _ _ _ _ _ _ _ _ _ _ _ _ _ _ _ _ _ _ _

Legenda: b = bend string 
	 r = release string from bend    
	 p = pull-off 
	 h = hammer-on
	 / = slide from/to                    

Comments for guitar tab — Paranoid (var.21) (Black Sabbath)

Other Paranoid (var.21) by Black Sabbath tabs:

Last viewed Black Sabbath tabs: