Black Sabbath - Paranoid (var.11) Guitar tab download free or play online

Guitar tab for Paranoid (var.11) by Black Sabbath free download and read or play online: file .txt, 2.47 kb has 1046 views and 0 downloads.

Download guitar tab "Paranoid (var.11)" (Black Sabbath)

Black Sabbath Band name
Paranoid Song name
Guitar tabs Tab type
2.47 kb File size
.TXT File type
1046 views
0 downloads
 
Are you robot?

Paranoid (var.11) guitar tab read and play online

                    e|-----------------------------------------------------------|
B|-----------------------------------------------------------|
G|-9^---7--7h9~~--9--7-9p7-----------------------------------|
D|--------------------------97--5h7-5h7--------5------------|
A|---------------------------------------5h7-7-----7---7~----|
E|-----------------------------------------------------------|

e|-------------------------------------------------------------------|
B|---------------------8--10-10^-8-10^-p8-10--8----------------------|
G|---------7h9-9--7/9---------------------------9--9---7h9--9--9/14--|
D|-5h7-7/9-----------------------------------------------------------|
A|-------------------------------------------------------------------|
E|-------------------------------------------------------------------|

e|-----12--------------------------15^--15^--15^-p12--15p12----15p12-----|
B|-12------15--15^--15^--15^--12----------------------------15-------15^-|
G|-----------------------------------------------------------------------|
D|-----------------------------------------------------------------------|
A|-----------------------------------------------------------------------|
E|-----------------------------------------------------------------------|

e|--------------12--------------------------------------------------------|
B|-15p12-----12----15p12--------------------------------------------------|
G|-------14^-------------14--14p12----12--14^-p12--14^--12h14p12----12----|
D|---------------------------------14----------------------------14----14-|
A|------------------------------------------------------------------------|
E|------------------------------------------------------------------------|

e|-----------------------------------------------------------------------|
B|-----------------------------------------------------------------------|
G|-----------------------------------------------------12----------------|
D|-14p12-----12------------------------------12--12h14----14--12---14-12-|
A|-------14-------12--10--12p10----10h12/14------------------------------|
E|------------------------------12---------------------------------------|

e|------------------------------------------------------------------------|
B|------------------------------------------------------------------------|
G|------------------------------------------------------------------------|
D|-14----------------------------------------------

Visit www.directTABS.com for more free tablature!                    

Comments for guitar tab — Paranoid (var.11) (Black Sabbath)

Other Paranoid (var.11) by Black Sabbath tabs:

Last viewed Black Sabbath tabs: