Black Sabbath - Paranoid (var.3) Bass tab download free or play online

Bass tab for Paranoid (var.3) by Black Sabbath free download and read or play online: file .txt, 4.29 kb has 1019 views and 0 downloads.

Download bass tab "Paranoid (var.3)" (Black Sabbath)

Black Sabbath Band name
Paranoid Song name
Bass tabs Tab type
4.29 kb File size
.TXT File type
1019 views
0 downloads
 
Are you robot?

Paranoid (var.3) bass tab read and play online

                    Black Sabbath- Paranoid

Tabbed by Jess-- I don’t know how to do time with tabs so figure 
it out not that hard

Intro
Wait until after guitar intro to start
| |---------------------------------------------------| |
| |---------------------------------------------------| |
| |/7-----7--7--7----------------5---7---------5---7--| |
| |------------------------5---7----------5---7-------| |
Play intro riff 2x second time with out slide

| |-------------------------------------| |
| |---------------------------------5-- | |
| |777777777777-55555555------5---7---5-| |
| |-------------------------------------| |
X2

| |--------------------------------------| |
| |--------------------------------------| |
| |777777777777--------------------------| |
| |--------------------5-55H-6---8-88H-9-| |

| |-------------| |
| |-------------| |
| |777777777777-| |
| |-------------| |

| |--------------------------------------| |
| |--------------------------------------| |
| |777777777777--------------------------| |
| |--------------------5-55H-6---8-88H-9-| |

| |-------------| |
| |-------------| |
| |777777777777-| |
| |-------------| |


| |-------------------------------------| |
| |---------------------------------5-- | |
| |777777777777-55555555------5---7---5-| |
| |-------------------------------------| |


| |--------------------------------------------| |
| |-----------------------------------5--------| |
| |777777777777--------5--7--55555555-----5---7| |
| |-------------5--7---------------------------| |

| |---------------------------------| |
| |---------------------------------| |
| |-----7-----7---5-----7-----7---5-| |
| |---------------------------------| |

| |----9---9---9---9------7---7---7---7------9---9---9---9--| |
| |---------------------------------------------------------| |
| |-7---7---7---7------5---5---5---5------7---7---7---7-----| |
| |---------------------------------------------------------| |

| |-------------------------------------| |
| |---------------------------------5-- | |
| |777777777777-55555555------5---7---5-| |
| |-------------------------------------| |
X2

| |--------------------------------------------| |
| |-----------------------------------5--------| |
| |777777777777--------5--7--55555555-----5---7| |
| |--------------5--7--------------------------| |
X2

| |-------------------------------------| |
| |---------------------------------5-- | |
| |777777777777-55555555------5---7---5-| |
| |-------------------------------------| |
Solo play this X4

| |--------------------------------------------| |
| |-----------------------------------------5--| |
| |777777777777--------5--7--55555555-----5---7| |
| |--------------5--7--------------------------| |
X2

| |-------------------------------------| |
| |---------------------------------5---| |
| |777777777777-55555555------5---7---5-| |
| |-------------------------------------| |
X2

| |--------------------------------------| |
| |--------------------------------------| |
| |777777777777--------------------------| |
| |--------------------5-55H-6---8-88H-9-| |

| |-------------| |
| |-------------| |
| |777777777777-| |
| |-------------| |

| |--------------------------------------| |
| |--------------------------------------| |
| |777777777777--------------------------| |
| |--------------------5-55H-6---8-88H-9-| |

| |-------------| |
| |-------------| |
| |777777777777-| |
| |-------------| |

| |--------------------------------------------| |
| |-----------------------------------------5--| |
| |777777777777--------5--7--55555555-----5---7| |
| |--------------5--7--------------------------| |
X2


| |-------------------------------------| |
| |---------------------------------5---| |
| |777777777777-55555555------5---7---5-| |
| |-------------------------------------| |
X2


For the last verse if you want you can bend the 5--5--7

might not be 100% right but its close

Sounds really cool. Enjoy                    

Comments for bass tab — Paranoid (var.3) (Black Sabbath)

Other Paranoid (var.3) by Black Sabbath tabs:

Last viewed Black Sabbath tabs: